Les Vulgaires Machins - Papotinage (var.4) Guitar tab download free or play online

Guitar tab for Papotinage (var.4) by Les Vulgaires Machins free download and read or play online: file .txt, 5.33 kb has 41 views and 0 downloads.

Download guitar tab "Papotinage (var.4)" (Les Vulgaires Machins)

Les Vulgaires Machins Band name
Papotinage Song name
Guitar tabs Tab type
5.33 kb File size
.TXT File type
41 views
0 downloads
 
Are you robot?

Papotinage (var.4) guitar tab read and play online

                    Papotinage
des Vulgaires Machins
pour la guitar
tabbler par: Mathieu Galipeau
email: bigwig69@hotmail.com

cette chanson la elle est amusante a jouer et très facile
alors amuser vous bien!

Intro

Guit 1 (Marie)

(1x)
e-|--------------------|
B-|--------------------|
G-|--7-----------------|
D-|--7--8--10--7-7-7-7-|
A-|--5--8--10--7-7-7-7-|
E-|-----6---8--5-5-5-5-|

apres:

La guitar 1 (Marie) joue:

(2x)      1                2                3                    4
e-|---------------|---------------|----------------------|---------------|
B-|---------------|---------------|----------------------|---------------|
G-|-7-7-7-7-7-7-7-|---------------|----------------------|---------------|
D-|-7-7-7-7-7-7-7-|-8-8-8-8-8-8-8-|-10-10-10-10-10-10-10-|-7-7-7-7-7-7-7-|
A-|-5-5-5-5-5-5-5-|-8-8-8-8-8-8-8-|-10-10-10-10-10-10-10-|-7-7-7-7-7-7-7-|
E-|---------------|-6-6-6-6-6-6-6-|--8--8--8--8--8--8--8-|-5-5-5-5-5-5-5-|

                                              
Et la guitar 2 (Guillaume)                       

(2x)        1                   2                   3                            4
e-|-------------------|-------------------|-------------------|---------------------------------------|
B-|-------------------|-------------------|-------------------|---------------------------------------|
G-|---------12-12--14-|---------12-12--14-|---------12-12--14-|---------12-12-14-14-15-14-15-14~~~~~~-|
D-|-12--15------------|-12--15------------|-12--15------------|-12--15--------------------------------|
A-|-------------------|-------------------|-------------------|---------------------------------------|
E-|-------------------|-------------------|-------------------|---------------------------------------|

Couplet:

La guitar 1 et 2

(2x)        
e-|----------------------------------------------------------------|
B-|----------------------------------------------------------------|
G-|-7-7-7-7-7-7-7--------------------------------------------------|
D-|-7-7-7-7-7-7-7-8-8-8-8-8-8-8-10-10-10-10-10-10-10-7-7-7-7-7-7-7-|
A-|-5-5-5-5-5-5-5-8-8-8-8-8-8-8-10-10-10-10-10-10-10-7-7-7-7-7-7-7-|
E-|---------------6-6-6-6-6-6-6--8--8--8--8--8--8--8-5-5-5-5-5-5-5-|

Refrain:

La guitar 1 et 2

(1x)
e-|---------------------------|
B-|---------------------------|
G-|--7--7---------------------|
D-|--7--7--8--8--10-10--7--7--|
A-|--5--5--8--8--10-10--7--7--|
E-|--------6--6---8--8--5--5--|

Couplet:

La guitar 1 et 2

(2x)        
e-|----------------------------------------------------------------|
B-|----------------------------------------------------------------|
G-|-7-7-7-7-7-7-7--------------------------------------------------|
D-|-7-7-7-7-7-7-7-8-8-8-8-8-8-8-10-10-10-10-10-10-10-7-7-7-7-7-7-7-|
A-|-5-5-5-5-5-5-5-8-8-8-8-8-8-8-10-10-10-10-10-10-10-7-7-7-7-7-7-7-|
E-|---------------6-6-6-6-6-6-6--8--8--8--8--8--8--8-5-5-5-5-5-5-5-|

Refrain:

La guitar 1 et 2

(2x)
e-|----------------------------------|
B-|----------------------------------|
G-|--7--7--------------------------7-|
D-|--7--7--8--8--10-10--7--7-------7-|
A-|--5--5--8--8--10-10--7--7-------5-|
E-|--------6--6---8--8--5--5---------|

Ensuite la guitar 1 fait:

e-|----------------------------------------------------|
B-|----------------------------------------------------|
G-|-7-7-7-7-7-7-7-7-7-7-7-7-7-7-7-14-14-14-14-14-14-14-|
D-|-7-7-7-7-7-7-7-7-7-7-7-7-7-7-7-14-14-14-14-14-14-14-|
A-|-5-5-5-5-5-5-5-5-5-5-5-5-5-5-5-12-12-12-12-12-12-12-|
E-|----------------------------------------------------|("muter")

Solo:

Guit 1:
(2x)             1                               2

e-|-----------------------------|------------------------------------|
B-|-----------------------------|------------------------------------|
G-|-7-7-7-7-7-7-7---------------|------------------------------------|
D-|-7-7-7-7-7-7-7-8-8-8-8-8-8-8-|-10-10-10-10-10-10-10-7-7-7-7-7-7-7-|
A-|-5-5-5-5-5-5-5-8-8-8-8-8-8-8-|-10-10-10-10-10-10-10-7-7-7-7-7-7-7-|
E-|---------------6-6-6-6-6-6-6-|--8--8--8--8--8--8--8-5-5-5-5-5-5-5-|

(1x)                      1                                                    2
                                                    
e-|----------------10-----------------------10-10-10-10-|10-10-10-10-10-10-10-10-10-10-10-10--13-15@15@15@~~~~|
B-|-9-10-9-10-9-10----10-10-10--10-10-10-10-------------|14@14@14@14@14*14*14*14*14@14@14@14@-----------------|
G-|-----------------------------------------------------|-----------------------------------------------------|
D-|-----------------------------------------------------|-----------------------------------------------------|
A-|-----------------------------------------------------|-----------------------------------------------------|
E-|-----------------------------------------------------|-----------------------------------------------------|

Après:

Guit 1 et 2
e-|------------------|
B-|------------------|
G-|--7--7-7-----5-7--|
D-|--7--7-7--8--5-7--|
A-|--5--5-5--8--5-7--|
E-|----------6-------|

et

(2x)        
e-|-------------------------------------------------------------------|
B-|-------------------------------------------------------------------|
G-|-7-7-7-7-7-7-7-----------------------------------------------------|
D-|-7-7-7-7-7-7-7-8-8-8-8-8-8-8-10-10-10-10-10-10-10-7-7-7-7-7-7-7--7-|
A-|-5-5-5-5-5-5-5-8-8-8-8-8-8-8-10-10-10-10-10-10-10-7-7-7-7-7-7-7--7-|
E-|---------------6-6-6-6-6-6-6--8--8--8--8--8--8--8-5-5-5-5-5-5-5--5-|                    

Comments for guitar tab — Papotinage (var.4) (Les Vulgaires Machins)

Other Papotinage (var.4) by Les Vulgaires Machins tabs:

Last viewed Les Vulgaires Machins tabs: